Ljubav ubija - Akordi PDF Ispis E-mail
Glavni riff:

h - hammer on

E-----------------------------------------------
B-----------------------------------------------
G---3h5--5----3-3-----5-5----------------
D---3h5--5----3-3-----5-5----------------
A-----------------------------------------------
E-----------------------------------------------

Refren:

   
E-----------------------------------------------
B----------------------------------------------
G--3----------8----3--------3-------3------
D--3--3------8----3--------3---3--3-------
A------3--------------------------3------------
E-----------------------------------------------

Solo:

E-------------------------------------------------
B-------------------------------------------------
G-----8h10--10---8-8--10-10-------------
D-----8h10--10---8-8--10-10-------------      x2
A------------------------------------------------
E------------------------------------------------
                                                                                                         x2
E-----------------------------------------------
B-----------------------------------------------
G---3h5--5----3-3-----5-5----------------          x2
D---3h5--5----3-3-----5-5----------------
A-----------------------------------------------
E-----------------------------------------------

Isto kao refren x1

Ljubav ubija - Akordi

Ljubav ubija - Akordi

 

 

Filmovi

Podržite nas