Greška
  • Greška u učitavanju tekuće vijesti.
  • Greška u učitavanju tekuće vijesti.
Ritam Nereda - Nikad - Akordi PDF Ispis E-mail

Akordi - Ritam Nereda - Nikad

 

 

 

Drop D

     Uvod:

    |-----------------------|------------------------|------------------------|
    |-----------------------|------------------------|------------------------|
    |-----------------------|------------------------|------------------------|
    |-----------------------|------------------------|------------------------|
    |-0-0-0-0-0-0-0-0-------|-0-0-0-0-0-0-0-0-0-0----|----0-0-0-0-0-0-0-0-----|
    |-0-0-0-0-0-0-0-0-------|-0-0-0-0-0-0-0-0-0-0----|----0-0-0-0-0-0-0-0-----|

    |-----------------------|------------------------|------------------------
    |-----------------------|------------------------|------------------------
    |-----------------------|------------------------|------------------------
    |-----------------------|------------------------|------------------------
    |-1-0--0-0-0-0-0-0-0----|-0-0-0-0-0-0-0-0-0-0----|-1-0--0-0-0-0-0-0-0-0---
    |-1-0--0-0-0-0-0-0-0----|-0-0-0-0-0-0-0-0-0-0----|-1-0--0-0-0-0-0-0-0-0---



    |-----------------------|
    |-----------------------|
    |-----------------------|
    |-----------------------| x8
    |-----------------------|
    |-13-12p0-13-12p0-10h12-|


     U strofi:

    |-----------------------|
    |-----------------------|
    |-----------------------|
    |-----------------------|
    |-1-0--0-0-0-0-0-0-0----|
    |-1-0--0-0-0-0-0-0-0----|   


    |-----------------------|
    |-----------------------|
    |-----4-----------------|
    |-----2-----------------|
    |--3----1p0-------------|
    |--3----1p0-------------| pa se ponavlja   


    I da li vidis da sve ostalo je isto?
    I da li shvatas da mi vise nije bitno?
    I kada shvatim da sve ostalo je isto,
    Da jedni drugima iz usta otece 
    Ja tada vidim da mi vise nije bitno,
    Neuki vladaju, sljam i polusvet 

    Ja za vas necu da znam, NIKAD, NIKAD!
    Ja nisam deo tog sna, NIKAD, NIKAD!

    I da li vidis da nista nije cisto?
    Sto nema usta nece da progovore 
    I da li shvatas da vise nije bitno?
    Mocnici lazu nepismeni svet!
    I da li vidis da nista nije cisto?
    I da li shvatas da vise nije bitno?

    NIKAD, NIKAD!   


    SOLO:


    |------------------------|
    |--/10--8-7--------------|
    |-------------7-8--10-7--|
    |------------------------|
    |------------------------|
    |------------------------|

Akordi Note Ritam Nereda - Nikad

 

Filmovi

Podržite nas