Greška
  • Greška u učitavanju tekuće vijesti.
  • Greška u učitavanju tekuće vijesti.
Van Gogh - Andjele moj brate - Akordi PDF Ispis E-mail

Akordi - Van Gogh - Andjele moj brate

 

 

 

Solo:

E |----------------------------|--9--10-9-----9-------------|
B |-----9--10-9--10----12------|-----------12----12-10------|
G |--11------------------------|----------------------------|
D |----------------------------|----------------------------|
A |----------------------------|----------------------------|
E |----------------------------|----------------------------|


----------------------------|--9--10-------9-------------|
-----9--10-9--10----12------|--------12------------------|
--11------------------------|----------------------------|
----------------------------|----------------------------|
----------------------------|----------------------------|
----------------------------|----------------------------|


----------------------------|--9--10-9-----9-------------|
-----9--10-9--10----12------|-----------12----12-10------|
--11------------------------|----------------------------|
----------------------------|----------------------------|
----------------------------|----------------------------|
----------------------------|----------------------------|


--10-9-----10-9-------------|----------------------------||
--------12----------12------|--10----9-------------------||
----------------------------|--------------11------------||
----------------------------|----------------------------||
----------------------------|----------------------------||
----------------------------|----------------------------||

Na strofama se svira progresija: F#m D A E

 F#m
 Kada bih mogao da
 D
 krenem iz pocetka
 A      E          F#m
 poceo bih daleko odavde
 D           A           E
 pustio bih da bujica me nosi

 F#m
 Da sam znao kako
 D
 prija mi brzina
 A      E             F#m
 svaki dan bio bi mi ludji
 D          A          E
 moji sati ne bi bili tudji


 F#m  D    A
  A  sad sta god da uradim
  E
  uzece mi vreme
 F#m  D    A  E    F#m   D  A  E
  a sad, uzece mi vreme


 F#5      D5
 Gde god da si
 A5      H5
 andjele moj brate
 F#5        D5
 nek  tvoje oci
 A5          H5
 me cuvaju i prate

 D
 Gresio bih sve
       H
 bio ludji nego pre
    D
 iz pocetka da krenem
  H5
 sada bih sve drugacije

 Kada bih mogao da
 krenem iz pocetka
 puno dece zivot bi mi dao
 pustio bih igra da nas nosi

 Kada bih mogao
 ponovo da biram
 lutao bih, nikad ne bi stao
 samo da sam znao

 Ref  2x

 Outro:
E |----------------|----------------------|----------------||
B |----------------|----------------------|----------------||
G |----------------|----------------------|----------------||
D |----------------|--4-----2-------------|----------------||
A |-----------2----|-----------4--0--2----|--4--2--0-------||
E |--2--4--5-------|----------------------|-----------2----||

Akordi Note Van Gogh - Andjele moj brate

 

Filmovi

Podržite nas