Lexington Band - Na dlanu - Akordi PDF Ispis E-mail

Akordi - Lexington Band - Na dlanu

 

 

 

Uvod: Am

E
To je trn koji dusu mi para,
Am
parce srca odlama 
E
Trag na licu covjeka sto stari,
Am
kad ga stigne sudbina 

Dm                      E
Zelja nek se nocas prolije,
Dm
kao vino istinu sto nosi
E7
ove noci besane 

Ref 
    Am          C            G
Ima dana kad se svega sjetim ja 
      Am           C            G
Zivim zivot kad se sve zaboravlja 
       Dm                    Am
Al  na dlanu uvijek isto pisace:
E                 (E7)
nova ljubav staru ne brise 
F          G           Am
Znaj, srce vjecno pamtice 

Veza: Am

Sa tvojih usana nek teku rijeci,
probudi srce pospano 
Zagrli me rukama hladnim,
za mene bice dovoljno 

Zelja nek se nocas prolije,
kao vino istinu sto nosi
ove noci besane 

Ref 
Ima dana kad se svega sjetim ja 
Zivim zivot kad se sve zaboravlja 
Al  na dlanu uvijek isto pisace:
nova ljubav staru ne brise 
Znaj, srce vjecno pamtice 

Solo:
  G    Am       Am    C           G         G
                _____
                ___               ___________
E|-------------|-----------------|---------|---------|
H|-------------|-----------------|---------|---------|
G|--------9----|7-9-7------------|7--------|7--------|
D|7-9-10-------|------10--9--10--|---------|---------|
A|-------------|-----------------|---------|---------|
E|-------------|-----------------|---------|---------|
   pamtice
  G   Am        Am     C          G              G
                _____
                ___                    ________  ________
E|-------------|-----------------|--------------|--------------|
H|-------------|-----------------|-----8--------|--------------|
G|--------9----|7-9-7------------|7------10-9-7-|9-7-----------|
D|7-9-10-------|------10--9--10--|--------------|----9-10-7----|
A|-------------|-----------------|--------------|--------------|
E|-------------|-----------------|--------------|--------------|

  F#        F#7          Hm
  ___ ____  _____ _____
E|----------------------|----------|
H|----------------12-11-|12--------|
G|----------12-11-------|----------|
D|9-8-12-11-------------|----------|
A|----------------------|----------|
E|----------------------|----------|
                     Ima dana   
modulacija u Hm:

Ref  (2x)
    Hm          D            A
Ima dana kad se svega sjetim ja 
      Hm           D            A
Zivim zivot kad se sve zaboravlja 
       Em                   Hm
Al  na dlanu uvjek isto pisace:
F#                F#7
nova ljubav staru ne brise 

G          A           Hm
Znaj, srce vjecno pamtice 

Akordi Note Lexington Band - Na dlanu

 

Podržite nas