Dzenan Loncarevic - Tako lako - Akordi PDF Ispis E-mail

Akordi - Dzenan Loncarevic - Tako lako

 

 

 

Uvod (2x):
  Em                H          H           D7       G
  _________                    ___________
E|-----------------|----------|----------------10--|----------|
H|-----------------|----------|------10-12-13------|13--------|
G|--9-11-12-11--9--|11--------|11-12---------------|----------|
D|9----------------|----------|--------------------|----------|
A|-----------------|----------|--------------------|----------|
E|-----------------|----------|--------------------|----------|

  G           E7     Am               Em   H7           Em
  ___________
E|------10-12-10----|----------------|-----------------|---------|
H|12-13-------------|13-12--10-13----|-----------------|---------|
G|------------------|----------------|11---11-12-11--9-|9--------|
D|------------------|----------------|-----------------|---------|
A|------------------|----------------|-----------------|---------|
E|------------------|----------------|-----------------|---------|

Em        D           C
Jos jedna vrata nocas zatvaram
D      Em
i odlazim 
          D              C
K o sitan novac uspomene cu
D         G
 da poklonim 

      D          Am
Nekom trebat ce   
          G
Nekom, ko voljet ce te,
    Em
kao ja,
     H    H7   Em
nece niko nikada 

          D       C
Jos jednu pobjedu upisat ces
D          Em
 u dnevnik svoj 
         D
Ja svoje poraze
C        D         G
nosit cu  sa osmjehom 

      D         Am
Ti ne postojis,
         G
tebe sam smislio ja,
      Em
zauvijek,
      H     H7   Em    H7
da mi budes zabluda 

Ref 
        Em          D
Ti tako lako ostavljas,
     C            G
tako lako kazes kraj,
     Am           Em
tako lako da prebolim,
      F#7       H
nikad necu biti jak 

H7      Em         D
Ja tako lako oprostim 
       C              G
k o da nemam nista s tim 
    Am             Em
kao nekog ludog stranca
      F#7     H7        Em
samog sebe   eee, prevarim 

  Em                H          H           D7       G
  _________                    ___________
E|-----------------|----------|----------------10--|----------|
H|-----------------|----------|------10-12-13------|13--------|
G|--9-11-12-11--9--|11--------|11-12---------------|----------|
D|9----------------|----------|--------------------|----------|
A|-----------------|----------|--------------------|----------|
E|-----------------|----------|--------------------|----------|

  G           E7     Am               Em   H7            Em
  ___________
E|------10-12-10----|----------------|-----------------|---------|
H|12-13-------------|13-12--10-13----|-----------------|---------|
G|------------------|----------------|11---11-12-11--9-|9--------|
D|------------------|----------------|-----------------|---------|
A|------------------|----------------|-----------------|---------|
E|------------------|----------------|-----------------|---------|

Em        D       C
Jos jednu pobjedu upisat ces
D          Em
 u dnevnik svoj 
         D
Ja svoje poraze
C        D         G
nosit cu  sa osmjehom 

      D         Am
Ti ne postojis,
         G
tebe sam smislio ja,
      Em
zauvijek,
      H     H7   Em    H7
da mi budes zabluda 

Ref 
        Em          D
Ti tako lako ostavljas
     C            G
tako lako kazes kraj
     Am           Em
tako lako da prebolim
      F#7       H
nikad necu biti jak

H7      Em         D
Ja tako lako oprostim
       C              G
k o da nemam nista s tim
    Am               Em
kao nekog ludog stranca
      F#7     H7        Em
samog sebe   eee, prevarim 

  H7      Em         Em    D            C           G  G
                               _______
     ___               ___     ____          ________         ___
E|-------|----------|------------------|--------------|-----------|
H|-----7-|8------8--|--7-7-------------|--------------|8----------|
G|---9---|----------|9-----------------|9----9-7----7-|-----------|
D|9------|----------|------9---10-9-10-|---------10---|-------7-9-|
A|-------|----------|------------------|--------------|-----------|
E|-------|----------|------------------|--------------|-----------|
   prevarim

  Am          Em  Em     F#7   F#7             H     H7
            ____         ____      __________           _____
E|---------------|------------|---------------|------------14-|
H|---------------|------------|---------------|---------17----|
G|---------------|9-----------|---------------|-----16--------|
D|10--9--7--10-9-|------------|---------------|9--------------|
A|---------------|-------9-10-|9----10-10-9-7-|---------------|
E|---------------|------------|---------------|---------------|

  Em           Em       D
                             _______
                  _____      ____
E|15------15--|---14-14---------------|
H|------------|17---------------------|
G|------------|---------16---17-16-17-|
D|------------|-----------------------|
A|------------|-----------------------|
E|------------|-----------------------|

  C              G   G
        ___________          _____
E|------------------|15------------|
H|17----17-15----15-|--------------|
G|------------17----|--------16-17-|
D|------------------|--------------|
A|------------------|--------------|
E|------------------|--------------|

  Am             Em  Em      F#7    F#7                H     H7
              _____
E|------------------|--------------|------------------|19--------|
H|------------------|17------19-20-|19----20-20-19-17-|----------|
G|17--16--14--17-16-|--------------|------------------|----------|
D|------------------|--------------|------------------|----------|
A|------------------|--------------|------------------|----------|
E|------------------|--------------|------------------|----------|
                                                             Ti   

Ref 
        Em          D
Ti tako lako ostavljas
     C            G
tako lako kazes kraj
     Am           Em
tako lako da prebolim
      F#7       H
nikad necu biti jak

H7      Em         D
Ja tako lako oprostim
       C              G
k o da nemam nista s tim
    Am               Em
kao nekog ludog stranca
      F#7     H7        Em
samog sebe   eee, prevarim 

Akordi Note Dzenan Loncarevic - Tako lako

 

Podržite nas

Login