Lexington Band - Da me nemaju neke bolje - Akordi PDF Ispis E-mail

Akordi - Lexington Band - Da me nemaju neke bolje

 

 

 

Bm = Bbm
Gb = F#
Db = C#
Ab = G#
Ebm = D#m

Uvod:
  (N C )  Ebm                Ebm       F
                 ____                     ____       ____
                 ____        ___3____     ____ ____  ____
E|-------|------------------|------------------------------|
H|-------|------------------|------------------------------|
G|-------|11--10-10-8--11---|11-11-11--10-10-8-8-----------|
D|-------|------------------|--------------------11--11-10-|
A|-------|------------------|------------------------------|
E|8S1----|------------------|------------------------------|

  Bm      F       F7     Bm         Gb
                              ____         ____      ____
                              ____         ____      ____
E|---------------|-----------------|----------------------|
H|---------------|-----------------|----------------------|
G|8--------------|-----------------|----------------------|
D|---11--11--10--|10--8--11---8-10-|11--10-10-8--11--8-10-|
A|---------------|-----------------|----------------------|
E|---------------|-----------------|----------------------|

  Gb         F                 Gb     Ab       Bm     B7
               ____      ____
  ___3____     ____ ___  ____
E|----------------------------|---------------|-------------|
H|----------------------------|---------------|-------------|
G|----------------------------|---------------|8------10----|
D|11-11-11--10-10-8-8-7--8-10-|10--8--11--10--|---11--------|
A|----------------------------|---------------|-------------|
E|----------------------------|---------------|-------------|

  Ebm                Ebm       F
         ____                     ____       ____
         ____        ___3____     ____ ____  ____
E|------------------|------------------------------|
H|------------------|------------------------------|
G|11--10-10-8--11---|11-11-11--10-10-8-8-----------|
D|------------------|--------------------11--11-10-|
A|------------------|------------------------------|
E|------------------|------------------------------|

  Bm     F        F7     Bm         Gb
                              ____         ____      ____
                              ____         ____      ____
E|---------------|-----------------|----------------------|
H|---------------|-----------------|----------------------|
G|8--------------|-----------------|----------------------|
D|---11--11--10--|10--8--11---8-10-|11--10-10-8--11--8-10-|
A|---------------|-----------------|----------------------|
E|---------------|-----------------|----------------------|

  Gb        F            F7    Bm        Bm
               ____      ____
  ___3____     ____ ___  ____  ___________
E|----------------------------|---------|---------|
H|----------------------------|---------|---------|
G|----------------------------|---------|---------|
D|11-11-11--10-10-8-8-7--8-10-|8--------|8--------|
A|----------------------------|---------|---------|
E|----------------------------|---------|---------|

Bm                 Gb
Tu sam pred teskim vratima
              Bm             Gb
od tvoje ljubavi, jos je prosim 
Bm                 Gb
Zivim za tren tvog pogleda,
               Bm          Gb
k o zig mi ostavi da ga nosim 

Ebm           F
Znam da me neces,
  Bm            Ab        Gb
a ne das drugoj da me zavoli,
                      F
da odglumis bol i zaplaces,
F7              Bm  F7
tek da mene zaboli 

Ref  2x
Bm           B7   Ebm
Da me nemaju neke bolje,
       F           Bm      F
sve si moje, dobro sebi uzela 
Bm          B7     Ebm
Vise nemaju sta da vole,
       F     F7              Bm
sve je tvoje i u tom si uspjela 

Solo:
  Ebm                Ebm       F
         ____                     ____       ____
         ____        ___3____     ____ ____  ____
E|------------------|------------------------------|
H|------------------|------------------------------|
G|11--10-10-8--11---|11-11-11--10-10-8-8-----------|
D|------------------|--------------------11--11-10-|
A|------------------|------------------------------|
E|------------------|------------------------------|

  Bm      F       F7     Bm         Gb
                              ____         ____      ____
                              ____         ____      ____
E|---------------|-----------------|----------------------|
H|---------------|-----------------|----------------------|
G|8--------------|-----------------|----------------------|
D|---11--11--10--|10--8--11---8-10-|11--10-10-8--11--8-10-|
A|---------------|-----------------|----------------------|
E|---------------|-----------------|----------------------|

  Gb        F            F7    Bm        Bm
               ____      ____
  ___3____     ____ ___  ____  ___________
E|----------------------------|---------|---------|
H|----------------------------|---------|---------|
G|----------------------------|---------|---------|
D|11-11-11--10-10-8-8-7--8-10-|8--------|8--------|
A|----------------------------|---------|---------|
E|----------------------------|---------|---------|

Bm             Gb
Tu si u svakoj rijeci,
             Bm         Gb
u svakom dodiru sto zaboli 
Bm                Gb
Tajna, od svih te cuvam,
              Bm          Gb
al  lako otkriju da te volim 

Ebm           F
Znam da me neces,
  Bm            Ab        Gb
a ne das drugoj da me zavoli,
                      F
da odglumis bol i zaplaces,
F7              Bm  F7
tek da mene zaboli 

Ref  2x
Bm           B7   Ebm
Da me nemaju neke bolje,
       F           Bm      F
sve si moje, dobro sebi uzela 
Bm          B7     Ebm
Vise nemaju sta da vole,
       F     F7              Bm  F7 (Bm)
sve je tvoje i u tom si uspjela 

Akordi Note Lexington Band - Da me nemaju neke bolje

 

Podržite nas