Snezana Djurisic - Kad srce srcu kaze zbogom - Akordi PDF Ispis E-mail

Akordi - Snezana Djurisic - Kad srce srcu kaze zbogom

 

 

 

  gm                   C7          F       A
E|---18-17-b18--17----|------17----------|--------------------|
H|20---------------20-|18-20----20-18----|17-20-18-b20--18-17-|
G|--------------------|------------------|--------------------|
D|--------------------|------------------|--------------------|
A|--------------------|------------------|--------------------|
E|--------------------|------------------|--------------------|

     A7       dm
E|------------------|
H|---------17-18----|
G|19-18-19----------|
D|------------------|
A|------------------|
E|------------------|

  gm                   C7          F       A       A7          dm
E|---18-17-b18--17----|------17----------|--------------------|----------|
H|20---------------20-|18-20----20-18----|17-20-18-b20--18-17-|----------|
G|--------------------|------------------|--------------------|19--------|
D|--------------------|------------------|--------------------|----------|
A|--------------------|------------------|--------------------|----------|
E|--------------------|------------------|--------------------|----------|

b - bending

dm       A    A7   dm
Kad srce srcu kaze zbogom
F           gm   A7            dm
zbog jednog pogleda, ljubavi nove,
F           gm   A   C#dim  A7 dm    D7
zbog jednog pogleda, ljubavi nove 

Ref:
gm        C7      F
Zar je to vernost bila?
A7               dm
Zar se to ljubav zove?
gm        C7      F
Zar je to vernost bila?
A         A7     dm
Zar se to ljubav zove?

  gm              C7      F     A
E|---6-5-b6--5---|----5--------|--------------|
H|8------------8-|6-8---8-6----|5-8-6-b8--6-5-|
G|---------------|-------------|--------------|
D|---------------|-------------|--------------|
A|---------------|-------------|--------------|
E|---------------|-------------|--------------|

  A7      dm
E|-------------|
H|------5-6----|
G|7-6-7--------|
D|-------------|
A|-------------|
E|-------------|

  gm              C7      F     A     A7       dm
E|---6-5-b6--5---|----5--------|--------------|---------|
H|8------------8-|6-8---8-6----|5-8-6-b8--6-5-|---------|
G|---------------|-------------|--------------|7--------|
D|---------------|-------------|--------------|---------|
A|---------------|-------------|--------------|---------|
E|---------------|-------------|--------------|---------|

dm       A    A7   dm
Kad srce srcu kaze zbogom
F           gm  A7            dm
zbog jednog osmeha, ljubavi nove,
F           gm   A  C#dim  A7 dm    D7
zbog jednog osmeha, ljubavi nove 

Ref:
gm        C7      F
Zar je to vernost bila?
A7               dm
Zar se to ljubav zove?
gm        C7      F
Zar je to vernost bila?
A         A7     dm
Zar se to ljubav zove?

  gm                   C7          F       A
E|---18-17-b18--17----|------17----------|--------------------|
H|20---------------20-|18-20----20-18----|17-20-18-b20--18-17-|
G|--------------------|------------------|--------------------|
D|--------------------|------------------|--------------------|
A|--------------------|------------------|--------------------|
E|--------------------|------------------|--------------------|

     A7       dm
E|------------------|
H|---------17-18----|
G|19-18-19----------|
D|------------------|
A|------------------|
E|------------------|

  gm                   C7          F       A       A7          dm
E|---18-17-b18--17----|------17----------|--------------------|----------|
H|20---------------20-|18-20----20-18----|17-20-18-b20--18-17-|----------|
G|--------------------|------------------|--------------------|19--------|
D|--------------------|------------------|--------------------|----------|
A|--------------------|------------------|--------------------|----------|
E|--------------------|------------------|--------------------|----------|

dm       A    A7   dm
Kad srce srcu kaze zbogom
F           gm  A7           dm
zbog jednih usana, ljubavi nove,
F           gm  A  C#dim  A7 dm    D7
zbog jednih usana, ljubavi nove 

Ref:
gm        C7      F
Zar je to vernost bila?
A7               dm
Zar se to ljubav zove?
gm        C7      F
Zar je to vernost bila?
A         A7     dm
Zar se to ljubav zove?

  C    B     A
E|----------|---------|
H|----------|---------|
G|5----3----|2--------|
D|----------|---------|
A|----------|---------|
E|----------|---------|

(N C )
Zar se to ljubav zove?

Zavrsetak:
  F         gm        A        B  C  dm
E|---------|---------|5-------|6--8--10----|
H|6--------|8--------|--------|------------|
G|---------|---------|--------|------------|
D|---------|---------|--------|------------|
A|---------|---------|--------|------------|
E|---------|---------|--------|------------|

Akordi Note Snezana Djurisic - Kad srce srcu kaze zbogom

 

Podržite nas