Emina Jahovic - Dzenan Loncarevic - Beograd prica - Akordi PDF Ispis E-mail

Akordi - Emina Jahovic - Dzenan Loncarevic - Beograd prica

 

  -8-10--------8-10------------------------------------------- e
-----9-9-8-9-----8-8----8----------11-9-9-8-8-------------8- h
---------------------10-------7-8-------------10-8-7-8-10--- g
---------------------------10------------------------------- d
------------------------------------------------------------ a
------------------------------------------------------------ e


-8-10--------8-10------------------------------------------- e
-----9-9-8-9-----8-8----8---------8------------------------- h
---------------------10-------7-8---10-10-8-8-7-7-----7----- g
---------------------------10------------------------8---10- d
----------------------------------------------------9------- a
------------------------------------------------------------ e

Cm B
Beograd prica, kol'ko sam te volela
G# B
a trebalo bi, da sam te prebolela
Fm
mudrost je poklon zivota
G
kad vise ti ne treba

Cm B
Beograd prica, kol'ko sam te voleo
G# B
ma laze vino, nisam te preboleo
Fm
dzaba mi ove daljine
G
bez karte i putnika

Ref:
Cm Fm
I svaki put, kada mi suza niz lice krene
B Es
ja znacu to da nikad nisi ni bio uz mene
G# B G
a bol k'o bol u ovoj kafani uvek bira isti sto
Dm
da popije laz.
Cm Fm
I svaki put kada mi ona iz kuce podje
B Es
ja znacu da od bolje loze bolje je grozdje
G# B G
a to sam ja, izmedju neba i zemlje uvek sam blizu dna
G# B Cm
ti najbolje znas.

Beograd prica da sam se izmijenila
pola me nema, da sam s nama umrla
tuga nije grehota
al' za sramotu znam.

Beograd prica da sam se izmenio
da vise nisam, onaj stari
sto te podigne
to te jos brze pokvari

koga nema bez njega se moze
al' ti tu si ispod koze
trajes k'o zlato koje vise
nema sjaj

u nama ista tuga zivi
za to smo podjednako krivi
k'o ogladnele zveri
jedno smo drugom kraj

Akordi Note Emina Jahovic - Dzenan Loncarevic - Beograd prica

 

Filmovi

Podržite nas

Login



Please login to Automatic Backlinks and activate this site.