Yu Grupa - Od zlata jabuka - Akordi PDF Ispis E-mail
Bm       A              E    A
Čudne se stvari sa nama zbivaju 
Bm     A          E   G A
oči ti silne laži skrivaju 
Bm       A           E      A
za druge mi smo vrlo srećan par 
Bm      A          E     Bm
gluma i daje svemu pravu čar 
 
Bm      A         E     A
Ti imas neku vrlo čudnu moć 
Bm        A            G    A
zbog tebe ja ne spavam celu noć 
Bm        A            E     A
čekam trenutak kad ćeš opet doći 
Bm      A          E     Bm
da me izlude tvoje plave oči 
 
D       G            A    G
Ti si daljina što me odvlači 
D         A            Em    A
čarobnjak što mi razum pomrači 
D       G              A   G
kada si sa mnom ja sam opčinjen 
D        A          Em     Bm
od jedne reči ja se opijem 
 
A    Bm E        G
Moja si od zlata jabuka 
A    Bm
moja si, o da 
E        G      A
------2----------- 
5-3-5----3--5-2--- 
----------------4- 
------------------ 
------------------ 
------------------ 
 A    Bm E        G
 moja si od zlata jabuka 
 A    Bm
 moja si 
 E           G
------------------------- 
------------------------- 
------------------------- 
------2-4-2-------------- 
2-4-5-------5-4-2-2-----2 
--------------------5-5-- 

Yu Grupa - Od zlata jabuka - Akordi

Yu Grupa - Od zlata jabuka - Akordi

 

 

Filmovi

Podržite nas