Kad me pogledaš (Acoustic Live) - Akordi PDF Ispis E-mail
Csus: x33010

                                                                                                             
Uvod:
F C 4x

                  F             G                   C Csus C
Bio je neki pogresan dan nestvaran
                  Am     F      G                                                                                                 
Govorila si ocima opojno
              Am   F      G                                                                                                             
Kao kad zima uspava
              Am     F       G                                                                                                               
Kao kad poraz spasava
              Am   F    G                       F                                                                                           
Kao kad jutro svanjava u pricama

Prelaz:
F C 2x
                                                                                                             
                   F          G                   C Csus C                                                                             
Bila je neka lagana stvar nestvarna
                  Am         F         G                                                                                       
Osvajala si usnama zanosno
              Am   F       G                                                                                             
Kao kad dete prohoda
              Am      F      G                                                                                           
Kao kad vojska marsira
               Am    F   G                   F                                                                                     
Kao kad ljubav ubija u pesmama

Prelaz:
F C 2x
                                                                                                             
                                                                                                             
Refren
C             F       G      C                                                                                               
A kad me pogledas
C             F      G       C                                                                                               
U zemlju propadam
C             F       G      C                                                                                               
A kad me pogledas
C            F       G                                                                                                   
U zemlju propadam

         Am                  F         G                                                                                             
Mada znam da ti se dopadam
                                                                                                             
         Am                  F         G                                                                                               
Mada znam da ti se dopadam

C             F       G      C                                                                                               
A kad me pogledas
C             F      G       C                                                                                               
U zemlju propadam
C             F       G      C                                                                                               
A kad me pogledas
C            F       G                                                                                                   
U zemlju propadam

         Am                  F         G                                                                                             
Mada znam da ti se dopadam
                                                                                                             
          Am                 F      G
Mada znam

Solo: Am F G
                                                                                                             
e|----------------------------------------|------------------------------------------|
B|--5v-------5v----------6-5h6p5----|----5v--------5v--------6----6-8-----|
G|-----7p5----------7-5-------------7-|---------7-5------7-5------------------|
D|----------7-----------------------------|-------------7--------------------------|
A|----------------------------------------|------------------------------------------|
E|----------------------------------------|------------------------------------------|

e|--------------------------------------|----------------------------------5-7-8-7-5---5-------------------------------------------|
B|---6-5--------------------------------|------------------------5-6-8---------------8---6-------5---5---------------------------|
G|--------7-5-4-5-4-------4-5-4----------|-----------4s5-7--------------------------------------7---5-----7-5-4----5-7-----|
D|----------------------5-7----------5-5s7-5--|-----x------------------------------------------------------------------5-----5---|
A|-------------------------------------------------|---x-------------------------------------------------------------------------------|
E|--------------------------------------|----------------------------------------------------------------------------------------------|

e|------7-8-10-10/12-12----10h12p10/8-10---8-7-8-10--------7---8-7--------------------------------|
B|----x-------------------------------------------------------------8-10-----------8------------------------------|
G|--x------------------------------------------------------------------------------------7-5-4-5-7-5-4---------|
D|------------------------------------------------------------------------------------------------------------5-7--|
A|------------------------------------------------------------------------------------------------------------------|
E|------------------------------------------------------------------------------------------------------------------|

e|----------------------------------|
B|----------------------------------|
G|-----5-4---------5-4-5-7-4--|
D|---7-----7-5-7-----------------|
A|---------------------------------|
E|---------------------------------|

Kad me pogledaš (Acoustic Live) - Akordi

Kad me pogledaš (Acoustic Live) - Akordi

 

 

Filmovi

Podržite nas