Greška
  • Greška u učitavanju tekuće vijesti.
  • Greška u učitavanju tekuće vijesti.
Galija - Decimen - Akordi PDF Ispis E-mail
Hm                  D                  A           Hm
Hladna noc, tek je ponocni sat, a ja cekam vec novi dan.
Hladna noc svi su zajedno sad mnogi vole se ja sam sam.

     D                 A
Novi sad, ja sam usnio novi san
     D                A
Bolji dan, sutra svanuce bolji dan,
 G                       Hm
Ali znam, stvarno svanuce isti dan
 G                       Hm
ali znam, sutra ce svanuti novi dan
        D       A         Hm     G A   Hm
Znam da svanuce dan jedan obican radni dan.


*druga strofa...


refren:
 D    A       Hm
Hej, hej hladna noc
D     A       Hm
Hej, hej vreli dan




pa solo (ili tako nesto):

E|--------0-------------|
H|--3-2-3---3-2-3-0-----| ovo x2

E|----0--2--3--2--0--2--|
H|--3------------------3| pa  ovo x2 pa onda

E|--7--5--7-------------|
H|-----------8---7-5-7--|
G|---------------------7|  isto 2x

i na kraju

   G   F#  Hm
E|-----------|
H|-4---3--4--|
G|-5---4--4--| isto 2x
D|-----------

Galija - Decimen - Akordi

Galija - Decimen - Akordi

 

 

Filmovi

Podržite nas