Greška
  • Greška u učitavanju tekuće vijesti.
  • Greška u učitavanju tekuće vijesti.
Vlada Divljan i Ljetno Kino Big Band - Samo jednu ljubav imam - Akordi PDF Ispis E-mail
e|--5-5----------5-5-----------------5-5------5-8-5--5--|
B|-------8-5---------8-6-5---5-8-5-------8-5--------8---|
G|-----------7---------------------7---------7----------|
D|------------------------------------------------------|
A|------------------------------------------------------|
E|------------------------------------------------------|

Dm         G      Am    Dm                 Am
Samo jednu ljubav imam, a ta ljubav, to si ti.
Dm              Am    F      G         Am
Dosao sam da ti kazem da cu s tobom ostati.

Dm                   Am   Dm            Am
Samo jednu ljubav trazim, sada sam je nasao.
Dm               Am    F       G        Am
Dosao sam da ti kazem, da bih s tobom ostao.

F G C Am

Am             F G Am  F         G     Am
Sleteo sam ti u snove, pitala si otkud ja,
Dm                  Am  F      G         Am
Shvatio sam da te volim kad si me probudila.

C G C Am

Am             F G Am  F      G       Am
Sleteo sam ti u snove, malo si se cudila,
Dm                 Am   F     G          Am
Poceo sam da te ljubim, kad si se probudila.


e|--5-5----------5-5-----------------5-5------5-8-5--5--|
B|-------8-5---------8-6-5---5-8-5-------8-5--------8---|
G|-----------7---------------------7---------7----------|
D|------------------------------------------------------|
A|------------------------------------------------------|
E|------------------------------------------------------|

Dm               Am    Dm        Am
Trazio sam te na moru i po okeanima,
Dm                Am    F     G         Am
Ti si dosla tiho, nezno i sve si promenila. 
Dm                Am    Dm                 Am
Samo jednu ljubav imam, a ta ljubav, to si ti.
Dm              Am    F      G          Am
Dosao sam da ti kazem da cu s tobom ostati.
 

F G C Am


Am             F G Am  F         G     Am
Sleteo sam ti u snove, pitala si otkud ja,
Dm                  Am  F      G         Am
Shvatio sam da te volim kad si me probudila.

C G C Am

Am             F G Am  F      G       Am
Sleteo sam ti u snove, malo si se cudila,
Dm                 Am   F     G          Am
Poceo sam da te ljubim, kad si se probudila.

Vlada Divljan i Ljetno Kino Big Band - Samo jednu ljubav imam - Akordi

Vlada Divljan i Ljetno Kino Big Band - Samo jednu ljubav imam - Akordi

 

 

Filmovi

Podržite nas