Greška
  • Greška u učitavanju tekuće vijesti.
  • Greška u učitavanju tekuće vijesti.
Nisam dobro - Akordi PDF Ispis E-mail
                      A                     C                          D
E|----5-----5h8p5-------------------|----------------------|------2--------------|
B|----5------------8-5---------------|----------5-----------|-----3--------------|
G|----6----------------8p7p5--7------|----------5-----------|-----2--------------|
D|----7------------------------------|----------5-----------|-----0--------------|
A|----7------------------------------|-----3----------------|---------------------|
E|-5---------------------------------|-----------------------|--------------------|

                    G                      A
E|--------3--------------------------|------5----------------|       
B|--------3--------------------------|------5----------------|
G|--------4--------------------------|------6----------------|
D|--------5--------------------------|------7----------------|
A|--------5--------------3-----------|------7----------------|
E|---3-------------0-3-5---5--3----3s|5----------------------|




A                 C                     D
Nikad nisam sam i užasno sam usamljen
G                          A
Ostao bez njih, zbog kojih disao sam
A                  C                   D
Plačem u ogledalu, majmun mi se smeje
  G                 A
Robijaću što treba, zauvek za tebe
  A                     C                   D
I samo sam zbog vas dve ustajao iz kreveta
G                  A
Nisam dugo spavao, noć po redu deveta
A                       C                   D
Dobijao sam ratove, al' bitke su me ubile
G                    A
Ljubavi su prošlosti kurčeve popušile


Koga boli kurac šta se meni dešava?
Bijem se k'o seljak, raspravljam, provociram
Koga boli kurac šta se meni dešava?
Niko više ne pita, svi znaju kako sam


Nisam dobro, nisam dobro
Nisam dobro, nisam dobro


Išao sam juče, nabavio pištolj
Prod'o mi ga lik, serijski je zbris'o
Proradio je demon, seljačina u meni
Umetnik sa utokom, biće tu problemi
Samo što ja sebe uništim u startu
I za tako nešto imam zlatnu medalju
Jer sam ostao bez vas i drugo ništa nemam
Osim okruženja, narkomana i kretena

 

Đorđe Miljenović - Nisam dobro - Akordi

Đorđe Miljenović - Nisam dobro - Akordi

 

 

Filmovi

Podržite nas