Greška
  • Greška u učitavanju tekuće vijesti.
  • Greška u učitavanju tekuće vijesti.
Otkud ti pravo - Akordi PDF Ispis E-mail
Parni Valjak - Otkud ti pravo

Intro
e------------------------
B-----3p2-3-2------------
G-----2~--2-2-----4-4-2~-
D-2/4---------0h4-5-5-4~-

e--------------------
B-----3p2-3-2-----0~-
G-----2~--2-2-----0~-
D-2/4---------4p2-0~-

Bm       A        G
Otkud ti pravo da tumačiš nebesa
Bm       A        Gad9-G
otkud ti pravo na to
i kako to da u život mi se mješaš
a ja te nisam pozvao

e------------------------
B-----3p2-3-2------------
G-----2~--2-2-----4-4-2~-
D-2/4---------0h4-5-5-4~-

e------------------------------
B-----3p2-3-2-----0~-----------
G-----2~--2-2-----0~-----------
D-2/4---------4/9-0~-----------
A--------------------5/6p5h6p5~-

Ljudi su isti kad pred Boga stanu
vjera ne poznaje zlo
vjera je ljubav vjera ne mrzi
zašto ne govoriš to

Refren
B5         A5          G5    A5
Vrijeme je bol vrijeme svodi račune
B5                G5    A5
koliko grijeha je to
B5         A5          G5    A5
Vrijeme je bol vrijeme svodi račune
B5                  G5   
kad dođe vrijeme za to

Solo1
e---------------------------------
B--------------------------------
G-b11r9p7---b11r9p7-9-7-9/11-9-7~--
D--------9~---------------------------

e-----7-10-7-9-7----------------
B----------------------------
G-9b11-----------7-9b11r9p7-9-7---
D-------------------------------9~-

e---------------------------------
B---12b14r12------------------------
G-11--------11~-9/11b14r11-9p7-6-7~-

e----7----5--------------
B---------5-7\2------3--
G-6/7--5/6--7\2--2/4-4--
D-----------7\2--------

Bm            G
Na kraju dana moraš sam sa sobom
Bm    A       G
otići miran u san
Bm          A               G
jer sve što jesi i sve što ćeš biti
Bm     A         G
uvijek odlučuješ sam

R
Vrijeme je bol vrijeme svodi račune
koliko grijeha je to
Vrijeme je bol vrijeme svodi račune
kad dođe vrijeme za to

Solo2-SLIDE
e--------------------------------
B--------------------------12-12-
G-2/4-6-7\6/7-9-9-7/9/-9/11-------

                      3:04
e-------------------------
B-14/15-15-15~-14/15-------
G--------------------16\---

e---------------------------------
B-----------------------------14/15-
G-----------------------------------
D-------11-12-14--12\11/12/14----
A-/14-14------------------------

e---------------------19-19~~-
B-15\14/15/17\15/17/-19---

Bm         A           G     A
Vrijeme je bol vrijeme svodi račune
Bm         A           G     A
Vrijeme je bol vrijeme svodi račune
Bm         A           G     A
Vrijeme je bol vrijeme svodi račune
Bm                G
koliko grijeha je to...

e---------------------------------
B-0-0-0-0-2-2-2-2-3-3-3-3-2-2-2-2-
G-0-0-0-0-2-2-2-2-4-4-4-4-2-2-2-2-...(3-4X)

Otkud ti pravo - Akordi

Otkud ti pravo - Akordi

 

 

Filmovi

Podržite nas