Greška
  • Greška u učitavanju tekuće vijesti.
  • Greška u učitavanju tekuće vijesti.
Kurva - Akordi PDF Ispis E-mail

Akordi/Tabovi:

INTRO:

E------------------------|----------------------|---|
B------------------------|----------------------|---|
G------------------------|-----0----------0-----|-9-|
D---7-9-7-9----7-10-7-10-|-------8----------6---|-7-|
A-0----------0-----------|---7-----7----5-----5-|-0-|
E------------------------|-8----------6---------|---|

VERSE:

E--------------------|--------|
B--------------------|--------|
G--------------------|--5-----|
D-7-7-9-9-7-10-10-10-|--5--5--|
A-0-0-0-0-0-0--0--0--|--3--5--|
E--------------------|-----3--|

Ona je bila najbolja u kvartu
jos je bolja kao zena
s frajerima nikad nije
imala ni problema

Voljeli smo ju 'ko klinci
drkali na nju pod dekom
nadali smo se da barem bit cemo
sa njenom sekom

Sada brije sam na lovu
divlje aute, skupu cugu
dok ja sad na staroj klupi
jos utapam svoju tugu

CHORUS:

E--------------|
B--------------|
G--------5-----|
D--7--3--5--5--|
A--7--3--3--5--|
E--5--1-----3--|

Da, ja znam, da ce meni
uvijek reci ne
ona zeli samo pozornost
zeli da je gledaju pickice

Ja znam da ce nekom s lovom reci da
ona brije samo na novac
bila je i ostala

SOLO:

E-----------------------|
B-----------------------|
G--7b-5h7p5-7b-5h7p5----|
D--------------------7--|
A-----------------------|
E-----------------------|

Kurva - Akordi

Kurva - Akordi

 

 

Filmovi

Podržite nas