Greška
  • Greška u učitavanju tekuće vijesti.
  • Greška u učitavanju tekuće vijesti.
Ljubavna pesma - Akordi PDF Ispis E-mail
INTRO:

E------------------------------------------------------------|
B----------------------------------3-------------------------|
G--------4------------2----------3---3-----------------------|
D------5---5--------3---3------4-------4------0-1------------|
A----5-------5----3-------3--5--------------0-----1----------|
E--3------------1-------------------------0---------2h3p2-1--|

Kazu mnogi, Mortal Kombat ne ume
Pesme ljubavne da pravi, jer ljubav ne razume
Oni samo znaju da pljuju i mrze,
Ne sviraju balade, vec stvari brze

F5   G#5
Dokazacemo svima, nije bas tako
C#5 D#5
Necemo dopustiti da to prode lako
F5   G#5
Dokazacemo svima, nije bas tako
C#5      D#5    F5
Dosta uvoda je bilo, krenimo polako

F5/G#5/F5/C#5/C5/A#5/G#5/3X(H5/C5) x2

F5      G#5
Sive zgrade, ulica moja
C#5      D#5
Tu smo pored kucnog mi broja
F5     G#5
Smejes mi se sto ga izgovaram osam,
C#5           D#5
Ne shvatam zasto, jednostavno glup sam

F5            G#5
Od skoro se znamo, iako zivis blizu,
C#5            D#5
Raskrsnica od moje treca u nizu
F5               G#5
Slicne stvari volimo, kad stavis ih na listu,
C#5       D#5
Slusamo cak i muziku istu

F5/G#5/F5/C#5/C5/A#5/G#5/3X(H5/C5) x2

F5             G#5
Otkako sam se mnogo zaljubio u tebe,
C#5                D#5
Nijedan problem nemam, nista me ne jebe
F5          G#5
Al’ sta ako mene gledas kao druga
C#5                D#5
To bas bi bilo sranje, bas bi bila pljuga

F5                G#5
Dok pricamo tu ispred, razmisljam o tome
C#5                D#5
Da li sada da ti kazem da zelim te puno
F5             G#5
Prekidas mi misao i oslobadas stresa,
C#5                   D#5
Jednim poljupcem me dizes visoko, u nebesa

    F5      C5
Setamo ti i ja, dva srca voljena
  C#5                 G#5
Kazem ti k’o kavaljer, pazi pokenjao se ker,
  F5 C5
Nemoj da ugazis u to, prilicno je odvratno!
   C#5      A#5
Izgledas divno, ljubicu te silno!
     F5              C5
Ti i ja, k’o iz holivudskog filma,
       C#5    A#5
Ja k’o Eston Kucer, pazi opet ono kuce!
       F5       C5
A ti kao Demi Mur, par godina si starija,
    C#5     G#5
Vodim te na zur u vilu „Marija”!

F5/G#5/F5/C#5/C5/A#5/G#5/3X(H5/C5) x2

E-------------------|
B-------------------|
G-------------------|
D--3-3-3-3-3-3------|     x4
A--3-3-3-3-3-3-4p3--|
E--1-1-1-1-1-1------|

F5              G#5
Bilo nam je super od pocetka do kraja
C#5          D#5
Bilo je do jaja, tih par meseci raja
F5          G#5
Mislio sam da ce trajati vecno,
C#5            D#5
Ta ljubavna prica, zavrsice se srecno

F5         G#5
Jednoga si dana dosla do mog stana,
C#5          D#5
Obuvena si usla, a na cipeli ti blato
F5              G#5
Rekla si mi da si se pomirila sa bivsim
C#5                D#5
I da gotovo je s nama, gotovo je zato!

       F5 C5
Secam se, ti i ja, dva srca voljena
  C#5 G#5
Kazem ti k’o kavaljer, pazi pokenjao se ker,
  F5       C5
Nemoj da ugazis u to, lepo sam ti rekao!
    C#5       A#5
Izgledas divno, ljubicu te silno!
      F5         C5
Ti i ja, k’o iz holivudskog filma,
C#5     A#5
Ja k’o Eston Kucer, pazi opet ono kuce!
F5        C5
A ti kao Demi Mur, par godina si starija,
    C#5      G#5
Vodim te na zur u vilu „Marija”!

F5 D#5 C#5 G#5 X2

F5 D#5 C#5 G#5 X2 (PALM MUTED)

E----------------------------------------------|
B----------------------------------------------|
G----------------------------------------------|
D--5b-3---3---5b-3-----------------------------| x2
A-------6----------6-3---3-3-4-3-4-4b-4-4-3----|
E-------------------------------------------4--|

E--------------------------------------------------------------------|
B--------------------------------------------------------------------|
G-----10-12b-10----10--12b-10----------------------------------------|
D--12-----------13------------13-10---10-10-11-10-11-11b-11-11-10----|
A-----------------------------------------------------------------11-|
E--------------------------------------------------------------------|

E-----------------------------------------------------------------------|
B-----------------------------------------------------------------------|
G--12b-10----10--12b-10-------------------------------------------------|
D---------13------------13-10---10-10-11-10-11-10-11-13-11-13-15-13-15--|
A-----------------------------------------------------------------------|
E-----------------------------------------------------------------------|

      F5 C5
Setamo pas i ja, dva srca slomljena
     C#5 G#5
Kasno je za nas, nisi moja voljena!
    F5       C5
Zasto si zgazila u to, moje srce jedino?
   C#5 A#5
Bilo je divno, a sad retrospektivno!
     F5        C5
Ti i ja k’o iz holivudskog filma,
C5      C#5 A#5
Romanticna drama što tuzan kraj ima!
F5       C5
Ti si kao Demi Mur, jos uvek mnogo lepa,
C#5 G#5
Dok sviram cis dur, dusa mi se cepa!

F5/G#5/F5/C#5/C5/A#5/G#5/3X(H5/C5) x2

Ljubavna pesma - Akordi

Ljubavna pesma - Akordi

 

 

Filmovi

Podržite nas