Greška
  • Greška u učitavanju tekuće vijesti.
  • Greška u učitavanju tekuće vijesti.
Himna - Himna Bosne i Hercegovine - Akordi PDF Ispis E-mail
Title: Himna Bosne i Hercegovine
SubTitle: Klasična gitara
Tempo = 96


E ||----------1----------------|----------|-----------3----------------|
B ||-5-----------5-----3-------|--3-------|--6-----------6-----5-------|
G ||o5-----------5-------------|--5--5----|--5-----------5-----5-------|
D ||o5-----------5-------------|--5--5----|--7-----------7-----7-------|
A ||---------------------------|----------|----------------------------|
E ||---------------------------|----------|----------------------------|


----------------|--3--------5--3-----1-------|--1--0--3--1----|
--3-------------|--3-----------3-------------|--1-----3-------|
--5-----4-------|--4-----------4-------------|--0-----4-------|
--7--7-----5----|----------------------------|----------------|
----------------|----------------------------|----------------|
----------------|----------------------------|----------------|


----------------------------|------||-------|----------------|----------------|
--5-----------3--------1----|--1---||--1----|--1--1--3--5----|--5--3--3--1----|
--5-----------5-----4-------|--0--o||--0----|--2-----0-------|--4-----0-------|
--5-----------7-------------|--2--o||--2----|----------------|----------------|
----------------------------|------||-------|----------------|----------------|
----------------------------|------||-------|----------------|----------------|


----------------------------------------------------------------------------|
--0--------------------------0-----0----------------------------------------|
--------------------------------2-----2--------------------------2----------|
----------------------------------------------------------------------------|
----------------------------------------------------------------------------|
----------------------------------------------------------------------------|


-------|----------------|----------------|
-------|--1--1--3--5----|--5--3--3--1----|
--0----|--2-----0-------|--4-----0-------|
-------|----------------|----------------|
-------|----------------|----------------|
-------|----------------|----------------|


----------------------------------------------------------------------------|
--0--------------------------3--1--3--1--------------------------3----------|
----------------------------------------------------------------------------|
----------------------------------------------------------------------------|
----------------------------------------------------------------------------|
----------------------------------------------------------------------------|


-------|-----------1----------------|----------|-----------3----------------|
--3----|--5-----------5-----3-------|--3-------|--6-----------6-----5-------|
-------|--5-----------5-------------|--5--5----|--5-----------5-----5-------|
-------|--5-----------5-------------|--5--5----|--7-----------7-----7-------|
-------|----------------------------|----------|----------------------------|
-------|----------------------------|----------|----------------------------|


----------------|--3--------5--3-----1-------|--1--0--3--1----|----------------|
--3-------------|--3-----------3-------------|--1-----3-------|--5-----3--1----|
--5-----4-------|--4-----------4-------------|--0-----4-------|--5-----5-------|
--7--7-----5----|----------------------------|----------------|--5-----7-------|
----------------|----------------------------|----------------|----------------|
----------------|----------------------------|----------------|----------------|


--3-------------------------|--3--------5--3-----1-------|--1--0--3--1----|
--3-------------------------|--3-----------3-------------|--1-----3-------|
--5-----4-----2--4--0-------|--4-----------4-------------|--0-----4-------|
----------------------------|----------------------------|----------------|
----------------------------|----------------------------|----------------|
----------------------------|----------------------------|----------------|


----------------------------|-------||
--5-----------3--------1----|--1----||
--5-----------5-----4-------|--0----||
--5-----------7-------------|-------||
----------------------------|-------||
----------------------------|-------||

Himna - Himna Bosne i Hercegovine - Akordi

Himna - Himna Bosne i Hercegovine - Akordi

 

 

Filmovi

Podržite nas