Greška
  • Greška u učitavanju tekuće vijesti.
  • Greška u učitavanju tekuće vijesti.
Ona zbor - solo - Akordi PDF Ispis E-mail
|--------------|-----------------|--------------|
|--------------|-----------------|--------------|
|--------------|-----------------|--------------|
|--------------|--------9-------|--------------|
|------11-11-|10-10--10-8-|------11-11-|
|8-8-11------|----------------|8-8-11------|

|------------------------|----|------|
|------------------------|----|------|
|------------------------|----|-12--|
|-------------9-10-12-|-9-|------|
|10-10-10------------|----|------|
|------------------------|----|------|

Ona zbor - solo - Akordi

Ona zbor - solo - Akordi

 

 

Filmovi

Podržite nas