Crvena Jabuka - Uzmi Me (Kad Hoćeš Ti) - Akordi PDF Ispis E-mail
Transkripcija: kiki


	STROFA:

    Dm		   Fmaj7  C              Dm
  :---------1---------0-------0-0------------0h1p0-|
  :---------3---------1------1----1----------3-----|
  :-----2-----------2-------0--------------2-------|
  :-0--------------3-------2-------------0---------|
  :-----------------------3------------------------|
  :------------------------------------------------|
    Gledam te dok  hodas  djevojcica   si  noci

    Dm		   Fmaj7  C              Dm
  :---------1---------0-------0-0------------0h1p0-|
  :---------3---------1------1----1----------3-----|
  :-----2-----------2-------0--------------2-------|
  :-0--------------3-------2-------------0---------|
  :-----------------------3------------------------|
  :------------------------------------------------|
   s usnama od    svile   bedrima     od  zlata

    Gm                             Dm
  :------3--------3---------3----------1--------|
  :------3--------3---------3----------3--------|
  :----3---------3-------3-----------2----------|
  :--------------------------------0------------|
  :---------------------------------------------|
  :-3----------3------3-------------------------|
    momacka je pjesma pod prozorom tvojim

    A                Fmaj7        Dm
  :-------0-------0---------------1-------|
  :-------2-------2---------------3-------|
  :----2-------2-------2-----2----2-------|
  :------------------3------------0-------|
  :-0--------0-------------0--------------|
  :---------------------------------------|
    kome ces veceras odskrinuti   vrata

    Dm   A               Dm
  :---1----0-----------------1--|
  :---3----2-----------------3--|
  :--2----2----------------2----|
  :-0---------3----------0------|
  :------0------0--2-4----------|
  :-----------------------------|
    aija aj   odskrinuti  vrata


	REFREN:


    Fmaj7        C            Fmaj7                   C
  :---0-----0------0-----0--|--------0-----------0--------0-----0--|
  :---1-----1------5-----5--|--------1-----------1--------5-----5--|
  :--2-----2------5-----5---|-----2----------2----------5-----5----|
  :-3-----3-----------------|-3----------3-------------------------|
  :--------------3-----3----|-------------------------3-----3------|
  :-------------------------|--------------------------------------|
    uzmi  me kad hoces ti     barem mene mozes uvijek ima~~~ti

    Gm                                Dm
  :-----------3----------3---------3-----0h1p0--|
  :-----------3----------3---------3-----3------|
  :-------3----------3------------3-----2-------|
  :-----------------------------------0---------|
  :---------------------------------------------|
  :-3------------3-------------3----------------|
    hajde dodji  da  se  srce  napi~~~je


	SOLO:


  :-------------|------------|-------------|------------|
  :-10--8---10~-|-8----------|-10--8---10~-|-8----------|
  :-------------|----9---10~-|-------------|----9---10~-|
  :-------------|------------|-------------|------------|
  :-------------|------------|-------------|------------|
  :-------------|------------|-------------|------------|

  :-------------------------------|-------------|-----------|
  :-8--10/11--11--11\10--8--8-----|--------8--8-|-----8--10-|
  :----------------------------10-|-9--10-------|-10--------|
  :-------------------------------|-------------|-----------|
  :-------------------------------|-------------|-----------|
  :-------------------------------|-------------|-----------|

  :-------------------------------|-------------|-----------|
  :-8--10/11--11--11\10--8--8-----|--------8--8-|-10--8-----|
  :----------------------------10-|-9--10-------|--------10-|
  :-------------------------------|-------------|-----------|
  :-------------------------------|-------------|-----------|
  :-------------------------------|-------------|-----------|

*C akord u strofi se trzne, ne razlaze

Crvena Jabuka - Uzmi Me (Kad Hoćeš Ti) - Akordi

Crvena Jabuka - Uzmi Me (Kad Hoćeš Ti) - Akordi

 

 

Filmovi

Podržite nas