Crvena Jabuka - Stari Moj - Akordi PDF Ispis E-mail
Intro:
e-------------------------------------------------]
B-------------------------------------------------]
G-------------------------------------------------]
D---------------------------------------5---------]
A--3-2h3p3---0--2h3p2----0---2-3-5-5/7~----5------]-2x
E----------3-----------3--------------------------]


Verse1:
C         G          Am 
O gdje si sada stari prijatelju moj
F        G           C
Po kojem moru plovis ti
C         G         Am
I gdje su sada nase bivse djevojke
F        G         Dm
Koje smo nekad voljeli
         Am  Dm       
Uz gem i dva    ti i 

A--3-2h3p3---0--]
E----------3----]

Verse-2-
I sve ce proci stari prijatelju moj
Sve nase tuge i radosti
Sve vazne stvari ce nam biti nevazne
I ostat cemo sami mi
Uz gem i dva u

A--3-2h3p3---0--2-3/5]
E----------3---------]
  starosti

Chorus:
C                  G  
Neka ove noci casa prazna ostane
Dm         Am Dm         G
Jedna za tebe druga za meneeeeeeee
C                      G
I neka ove noci pjesma tuga postane
Dm        Am      Dm           F
Pjevam za tebe ti pjevaj za meneeeeeeeee

Stari moj

SOLO-1-

Verse-3-
Dal ce mo moci jedan drugom priznati
Sve greske i zablude
Pod morvom cu te jednog dana cekati
Kada snage nebude 
Uz gem il dva ti i ja

Chorus-2x-jedan put tiho drugi put jako

SOLO-2-

Verse-4-
O gdje si sada stari prijatelju moj
U kojoj luci trazis spas
Svega ce biti na ovom svijetu blesavom
Samo nece biti nas uz gem i dva
Nikada ...

Crvena Jabuka - Stari Moj - Akordi

Crvena Jabuka - Stari Moj - Akordi

 

 

Filmovi

Podržite nas