Dani su bez broja - Akordi PDF Ispis E-mail
Dm
Nisam nikom sve do danas
                        C B
rekla ovo, a sad cu naglas.
Dm
Sad cu vikat' nek' se cuje
                    C B
neka svijetom odjekuje
Dm
Ne znam dal' sam mrtva il' ziva
F
od kad si mi skinuo krila,
B                          C
ne sjecam se da sam sretna bila

ref.
Dm                 F
Dani su bez broja, imena i boja
Gm                 B  C                 Dm
otkad nisam tvoja ja, otkad nisam tvoja ja.
                 F
Pjesma galebova, mora preko gora
Gm          B  C              Dm
a bez tebe ja, ne mogu ni koraka.

Nece proci svjetom sutke,
svuda nosim njene zvuke.
Ne znam dal' sam mrtva il' ziva,
od kad si mi skinuo krila
ne sjecam se da sam sretna bila

ref.

-----------------------------------------
***VERZIJA 2***
-----------------------------------------

Transkripcija: nemanja l

Uvod:
l|---0-0-0--0-0-0----------------------------------------
H|-----------------3-1-0-1-3------3-3-3--3-3-3--1-0---0-1
G|--2-----------------------------------------------2----
D|-----------------------------2-------------------------
A|-------------------------------------------------------
E|-------------------------------------------------------

e|----0-0-0--0-1-3--1-0-------------------------0-1-
H|----------------------3-1-0----3-3-3-3----3-3-----
G|--2-----------------------------------------------
D|--------------------------------------------------
A|--------------------------------------------------
E|-----------------------------0----------0---------


Pratnja uvoda:

|Am|G|E|Am|Am|G|E|E|

Strofa
------
Am
Nisam nikom sve do danas
                        G F
rekla ovo, a sad cu naglas.
Am
Sad cu vikat' nek' se cuje
                    G F
neka svijetom odjekuje
Am
Ne znam dal' sam mrtva il' ziva
C
od kad si mi skinuo krila,
F                          G
ne sjecam se da sam sretna bila.

prelaz G E (G udaris 3 puta E jednom)

Refren
------
Am                 C
Dani su bez broja, imena i boja
Dm                 F  G                 Am
otkad nisam tvoja ja, otkad nisam tvoja ja.
                 C
Pjesma galebova, mora preko gora
Dm          F  G              Am
a bez tebe ja, ne mogu ni koraka.

Strofa
------

Nece proci svjetom sutke,
svuda nosim njene zvuke.
Ne znam dal' sam mrtva il' ziva,
od kad si mi skinuo krila
ne sjecam se da sam sretna bila.

Refren
------

Am                 C
Dani su bez broja, imena i boja
Dm                 F  G                 Am
otkad nisam tvoja ja, otkad nisam tvoja ja.
                 C
Pjesma galebova, mora preko gora
Dm          F  G              Am
a bez tebe ja, ne mogu ni koraka.

 

Magazin - Dani su bez broja - Akordi

Magazin - Dani su bez broja - Akordi

 

 

Podržite nas