Alen Islamović - Ovo zrno duše - Akordi PDF Ispis E-mail
Alen Islamovic - Ovo Zrno Duse
Transkripcija: Johnny035
04.11.2015.

Album: "Haj nek se cuje, cuje, haj, nek se zna" (1989.) - Jugoton
Muzika & tekst: Alen Islamovic
Aranzman: Niksa Bratos
YT: https://www.youtube.com/watch?v=T4Uz0tXectA

Uvod*:
...A  |Hm    |
|Hm    |Hm    |G    |G    |
|Em    |Em    |Hm    |Hm    |
|Hm    |Hm    |G    |G    |
|Em    |A    |Hm    |Hm    |
|Hm    |Hm    |Hm    |Hm    |

* - U uvodu, ali i vezi izmedju refrena i druge strofe se sviraju
    linije na klavijaturama sa dugim tonovima (ne znam im tacan naziv),
    a posto nisam klavijaturista, ja sam malo improvizovao.
    Gitaristi neka krenu sa samo sa dugim Hm (moze i razlaganje)
    i odmah da se predje na strofu.

Hm
Vjetrovi mi sjeverni
            D
godine raznose,
    A
a nijednu tebi juznije
G           Hm
niko da odnese.

Hm
Ovo zrno duse bi
            D
dobrih namjera
    A
jos koji put da zanoci
     G           Hm
kraj tvojih prozora.

Ref.
D                   A
Ne dajte joj da samuje,
Hm        D            A
ne gasite svijece za mene.
D                     A
Ne dajte joj da preplace
Hm      D        A  D A Hm
sve ove nase rasute godine.

Veza:
|Hm    |Hm  A  |G    |G    |
|Em    |Em  A  |Hm    |Hm  A  |
|Hm    |Hm    |G    |G    |
|Em    |Em    |A    |A    |
|Hm    |Hm    |Hm    |Hm    |

Kako da saputanje
spustim kraj tebe
i paucinom k'o posteljom
prekrijem za sebe?

Ovo zrno duse bi,
sto nema koraka,
i jos koji put da zanoci
u perju jastuka.

Ref.
Ne dajte joj da samuje,
ne gasite svijece za mene.
Ne dajte joj da preplace
Hm      D        A  D A E
sve ove nase rasute godine.

modulacija u C#m:
Solo:
  E                E                  H               H
                            ________             _____
            _____           _____               /     \      _____
E|----------------|------------------|---------------|-------------|
H|----12----------|------------------|---------------|-------------|
G|13--------14-13-|13----------------|11-------------|-------------|
D|----------------|---------14-13-14-|----13-11-9----|9------14-13-|
A|----------------|------------------|---------------|-------------|
E|----------------|------------------|---------------|-------------|


  C#m              E                H             H
                                            ______
            _____      ____                /      \       ____
E|----------------|----------------|-------------|-------------|
H|----------------|----------------|-------------|-------------|
G|----------------|---------13--13-|11---9-11----|11------9-11-|
D|11--------14-13-|14--9-14--------|-------------|-------------|
A|----11----------|----------------|-------------|-------------|
E|----------------|----------------|-------------|-------------|

  E                E                  H               H
                            ________             _____
            _____           _____               /     \      _____
E|----------------|------------------|---------------|-------------|
H|----12----------|------------------|---------------|-------------|
G|13--------14-13-|13----------------|11-------------|-------------|
D|----------------|---------14-13-14-|----13-11-9----|9------14-13-|
A|----------------|------------------|---------------|-------------|
E|----------------|------------------|---------------|-------------|

  C#m              E                H              H
                                            ________
            _____      ____                /        \
E|----------------|----------------|--------------|----------|
H|----------------|----------------|---14-12------|12--------|
G|----------------|---------13--13-|11------------|----------|
D|11--------14-13-|14--9-14--------|--------------|----------|
A|----11----------|----------------|--------------|----------|
E|----------------|----------------|--------------|----------|

Ref.
E                   H
Ne dajte joj da samuje,
C#m       E            H
ne gasite svijece za mene.
E                     H
Ne dajte joj da preplace
C#m     E        H  E H C#m  H A
sve ove nase rasute godine.

A   C#m  H
Godine...

E H C#m
Godine...
 Komentari:
Poslao :: radijator7


Alen Islamović-Ovo zrno duše

Hm                               D  
Vjetrovi mi sjeverni godine raznose 
     A                  Hm              
a ni jednu tebi južnije nikog da odnese
Hm                           D  
ovo zrno duše mi dobrih namjera 
    A                       Hm              A            
još koji put da zanoći kraj tvojih prozora

   D                   A  
   Ne dajte joj da samuje
   Hm        D            A  
   ne gasite svijeće za mene
   D                     A  
   ne dajte joj da preplače
   Hm      D        A  A4 A Hm 
   sve ove naše rasute go.dine
Poslao :: Johnny035
OK, neka izmeni neko ovo.


Hm
Vjetrovi mi sjeverni
            D
godine raznose,
    A
a nijednu tebi juznije
Hm           
niko da odnese.

Hm
Ovo zrno duse bi
            D
dobrih namjera
    A
jos koji put da zanoci
     Hm              A
kraj tvojih prozora.

Ref.
D                   A
Ne dajte joj da samuje,
Hm        D            A
ne gasite svijece za mene.
D                     A
Ne dajte joj da preplace
Hm      D        A  Asus4  A   Hm
sve ove nase rasute go.....di...ne.


Drugi refren:

Ref.
Ne dajte joj da samuje,
ne gasite svijece za mene.
Ne dajte joj da preplace
Hm      D        A  Asu4   A    E
sve ove nase rasute go.....di...ne.


Poslednji refren:

Ref.
E                   H
Ne dajte joj da samuje,
C#m       E            H
ne gasite svijece za mene.
E                     H
Ne dajte joj da preplace
C#m     E        H  Hsus4  H    C#m  H A
sve ove nase rasute go.....di...ne.

A   C#m  H
Godine...

Hsus4  H    C#m
Go.....di...ne...

Alen Islamović - Ovo zrno duše - Akordi

Alen Islamović - Ovo zrno duše - Akordi

 

 

Podržite nas