Djordje Balasevic - Za Trecu Smenu - Akordi PDF Ispis E-mail

Akordi - Djordje Balasevic - Za Trecu Smenu

 

 

 

Intro

Cm  / G / G7 / Cm  /
Cm  / D# / Fm / G / Cm / (G7)


Cm                                 G
Vidis li gde sam to sad, u kom sam dobu?
G7                               Cm
Cudne mi ptice, da znas, snovima jezde   
D#                                  Bb
Jer jos sam suvise mlad da mislim o grobu,
Fm                              G         G7
a vec sam suvise star da brojim zvezde   

Cm                              G
Cujes tisinu? Taj zvuk? Prolazi vreme   
G7                               Cm
Zuji i preti kroz noc, drhti k o kobra   
D#                             Bb
Nemoj da nacinjes sad ozbiljne teme,
Fm                         G        (G7)
dodji i skupi se tu, i budi dobra   

Ref 
             Cm              G#
Pa naspi jos jednu za vecite krivce,
        Fm
za balansere   
          D#               G7
Ne boj se imam ja prilican cug   
          Cm               G#
Naspi jos jednu, za umorne livce,
        Fm
za proletere,
        D#          G7         Cm
veceras treca smena vraca tudji tug   


Skoro ce svanuti dan  Jos jedan praznik 
Znam, svi su ti plavi k o san, svi su ti isti   
Budis se retko u sest, samo po kazni 
Kad moras negde na put, ili na ispit   

Ref 

Solo (Intro sema)

Ponekad, tragam i ja za zlatnim runom   
Mozda cu sanjati dim, vatru i celik 
Ne, nisi ti kriva za to, ma volim te puno,
hajde sad, daj mi pred san, jedan poljubac velik   


Ref  2x

Pa naspi jos jednu za vecite krivce,
za balansere   
Naspi jos jednu za moje drugare   
Naspi jos jednu, za umorne livce,
za proletere,
veceras treca smena vraca tudji tug   
                         Cm         (fade out)
Naspi jos jednu za trecu smenu   

-----------------------------------------------------
Razlaganje (kako bi mozda najbolje zvucalo na gitari)

Strofa

   Vidis li       u kom sam dobu   
   Cm                      G
E*|-3-3----3----3----3------3-3----3----3----3-----
H*|-4---4----4----4----4----3---3----3----3----3---
G*|-5-----5----5----5----5--4-----4----4----4----4-
D*|-5-----------------------5----------------------
A*|-3-----------------------5----------------------
E*|-------------------------3----------------------
   Cudne mi       snovima  jezde   
   G7                      Cm
E*|-3-3----3----3----3------3-3----3----3----3-----
H*|-3---3----3----3----3----4---4----4----4----4---
G*|-4-----4----4----4----4--5-----5----5----5----5-
D*|-3-----------------------5----------------------
A*|-5-----------------------3----------------------
E*|-3----------------------------------------------
   Jer jos sam         o   grobu   
   D#                      Bb
E*|-6-6----6----6----6------6-6----6----6----6-----
H*|-8---8----8----8----8----6---6----6----6----6---
G*|-8-----8----8----8----8--7-----7----7----7----7-
D*|-8-----------------------8----------------------
A*|-6-----------------------8----------------------
E*|-------------------------6----------------------
   A vec sam       brojim  zvezde   
   Fm                      G                      (G7)
E*|-1-1----1----1----1------3-3----3----3----3-----
H*|-1---1----1----1----1----3---3----3----3----3---
G*|-1-----1----1----1----1--4-----4----4----4----4-
D*|-3-----------------------5----------------------
A*|-3-----------------------5----------------------
E*|-1-----------------------3----------------------

Akordi Note Djordje Balasevic - Za Trecu Smenu

 

Filmovi

Podržite nas

Login



Please login to Automatic Backlinks and activate this site.