Bajaga - Život je nekad siv nekad žut + tab - Akordi PDF Ispis E-mail
                  ŽIVOT JE NEKAD SIV NEKAD ŽUT (BAJAGA I INSTRUKTORI)
RIF
  F#m
E-------------------------------
B-------------------------------
G-2----------------------------
D----4-4-4--2--4-4-4------------
A-------------------------------
E-------------------------------
SOLO 1
   Hm          F#m          A               E                  
E--7-7-7-7-7-7--5-5-4------4-4>5-5-5-5-5-5-5-4------------4-4>5--
B---------------------7--7---------------------7-5----5-7--------
G---------------------------------------------------8------------
D----------------------------------------------------------------
A----------------------------------------------------------------
E----------------------------------------------------------------
 Hm           F#m         A                E
E--7-7-7-7-7-7--5-5-4------4-4>5-5-5-5-5-5-5-4------
B---------------------7--7---------------------7-5--
G---------------------------------------------------
D---------------------------------------------------
A---------------------------------------------------
E---------------------------------------------------
SOLO 2 (ZA STROFU RVOJ ŽIVOT JE...)
   D                               A                      E
E--------------------5-5-2-2------5-5---------------------------------
B------------2-3-5-----------3--3-----5-5-2--------------------------- 
G-----1-2-4----------------------------------2-4>6-2-4>6--4-2---------   X2 
D--4----------------------------------------------------------2-------
A---------------------------------------------------------------------
E---------------------------------------------------------------------

''''''''''''''''''''''''''''''''''''''''''''''''''''''''''''''''''''''''''''''''''''''
AKORDI TEKST I PLAN SVIRANJA:

RIF X2

SOLO X1

RIF X2

F#m
Život je nekad siv nekad žut  
      A       E 
život je ovaj put 
     F#m 
za mene zabrinut 
 
F#m 
Ne brini Žiko ti kazu svi 
     A              E 
Žile nemoj brinuti, boluješ od ljubavi 
      F#m 
to se teško podnosi 
 
 
   Hm            F#m 
Toliko je volim a nisam sa njom      
      A                 E 
baš ti sada ja pričam o tom           =>U OVOJ STROFI MOŽETE SVIRATI  
   Hm             F#m                   I SOLO 1 AKO IMATE NEKOG DA SVIRA SA VAMA
Koliko je volim ja najbolje znam 
     A                E 
i na kraju ćeš ostati sam 


D     A 
Tvoj život je 
A                           E
nekad siv, nekad siv nekad žut 
D     A
tvoj život je                        =>U OVOJ STROFI MOŽETE SVIRATI 
A                           E          I SOLO 2 AKO IMATE NEKOG DA SVIRA SA VAMA
nekad siv, nekad siv nekad žut         

RIF X2

SOLO X1

RIF X2
 
F#m
Život je nekad žut nekad siv 
A              E
Život je kad si živ 
F#m
Život je zato kriv 
 
F#m 
Ne brini Žiko ti kazu svi 
     A                  E 
Žile nemoj brinuti, boluješ od ljubavi 
        F#m 
to se teško podnosi  
 
   Hm            F#m 
Toliko je volim a nisam sa njom 
       A                 E 
baš ti sada ja pričam o tom 
   Hm            F#m 
Koliko je volim ja najbolje znam 
       A              E 
i na kraju ćeš ostati sam 
 

D     A 
Tvoj život je 
A                           E
nekad siv, nekad siv nekad žut 
D     A
tvoj život je 
A                           E   
nekad siv, nekad siv nekad žut 



KONTAKT:
INSTA:_COA_06
FACEBOOK:ALEKSA PERUŠINOVIĆ
MAIL:
 Ova e-mail adresa je zaštićena od spam robota, nije vidljiva ako ste isključili JavaScript
 
VIBER:+38766181555

(ako primjetite neku gresku slobodno se javite)

Bajaga - Život je nekad siv nekad žut + tab - Akordi

Bajaga - Život je nekad siv nekad žut + tab - Akordi

 

 

Podržite nas