Djordje Balasevic - Neko To Od Gore Vidi Sve - Akordi Note PDF Ispis E-mail

Akordi - Djordje Balasevic - Neko To Od Gore Vidi Sve

 

Uvodna sekvenca:
V......................................................
e-------5------------5---------------------------------
H------------------------------8------------------8----
G---------------5---------------------------5----------
D--------------------------------------5---------------
A------8-----------------------7-----------------------
E------------------------------------------------------

V.......................................................
e-------------------------------------------------------
H-------6----------------------5------------------5-----
G----------------------5--------------------5-----------
D---------------7-----------------------5---------------
A------5------------------------------------------------
E-------------------------------8-----------------------

e---------------------------------------------------------------3-
H-------3----------------------1-------------------3----------0---
G---------------------0---------------------2------2----------0---
D---------------0----------------------2----------------------0---
A------2-----------------------0------------------------------2---
E---------------------------------------------------2----------3--
Stvar dalje krece iz C-dura


C G Am
Stevu Cenejca je ubio grom, nezno ko rukom.
F Dm C
Na sirokom soru tu negde pred zoru il pre.
G E F Dm
Niko se nije pitao gde se to nocu skitao,
C G F E
nego su zalili i svece palili svi.

Sa njegovim stricem sam proveo dan,
bio je ocajan, al taj matori momak
je imao stomak za sve.

Pa rece: "Eto, tudjeg se latio,
zato je glavom platio.
Zbog zene svog kuma je sisao s uma, sasvim.

Dm F G
A vidis neko to od gore vidi sve.
C F G (Am G C)
Povlaci te konce, igra se,
F E C
postavi svaku stvar na svoje mesto.
Dm
Svako dobro, a zlo jos pre.
F C G
Sve vide oci sudbine."

Tako ponekad te reci mi dodju, ko jeka.
Kao bure se spuste i pacovi napuste brod.
Ne brinem mnogo o njima vrate se s lepim danima.
Pa idemo dalje i plovidba traje ko pre.
Al znam da neko to od gore vidi sve.
Povlaci te konce, igra se,
postavi svaku stvar na svoje mesto.
Svako dobro, zlo jos pre.
Sve vide oci sudbine."

Lomis mi srce ko bagremov prut, onako uz put,
kad ostanes sama ti nadjes par dana za nas.
Al ja crtam svoje krugove i prastam stare dugove.
Da mozda se varam, al sto da se staram o tom.
Kad uvek neko to od gore vidi sve.
Povlaci te konce, igra se,
postavi svaku stvar na svoje mesto.
Svako dobro, zlo jos pre.
Sve vide oci sudbine."




***VERZIJA 2***


C G Am
Stevu Cenejca je ubio grom, nezno ko rukom.
F Fm C
Na sirokom soru tu negde pred zoru il pre.
G Am F Fm
Niko se nije pitao gde se to nocu skitao,
C G F C
nego su zalili i svece palili svi.

Sa njegovim stricem sam proveo dan,
bio je ocajan, al taj matori momak
je imao stomak za sve.

Pa rece: "Eto, tudjeg se latio,
zato je glavom platio.
Zbog zene svog kuma je sisao s uma, sasvim.

G F G
A vidis neko to od gore vidi sve.
C F G
Povlaci te konce, igra se,
F G
postavi svaku stvar na svoje mesto.
C F
Svako dobro, a zlo jos pre.
C G F C
Sve vide oci sudbine.



***VERZIJA 3***

[C]Stevu Cenejca je [G6]ubio grom
nezno k'o [Am]ruk[Am7]om
na [F]sirokom soru tu
[Fm6]negde pred zoru il' [C]pre.
I [Dm6]niko se nije [Em]pitao
gde se to [F]nocu ski[Fm6]tao
[C]nego su zalili i svece palili [F]svi. [C]

Sa njegovim stricem sam proveo dan bio je ocajan.
Al' taj matori momak je imao stomak za sve.
Pa rece: Eto tudjeg se latio zato je glavom platio
- zbog zene svog kuma je sisao s uma sasvim.

Al vidis [Dm]neko to od[F]gore vidi [G]sve
[Em]povlaci te [F]konce [G]igra se.

[F]Postavi na [E]svoje mesto [C]svako dobro
[D]zlo jos pre - [F]sve vide [C]oci [G]sudbi[C]ne.


***VERZIJA 4***




Akordi Note Djordje Balasevic - Neko To Od Gore Vidi Sve

 

Filmovi

Podržite nas

Login



Please login to Automatic Backlinks and activate this site.